СТРАНИЦА ПЕСНИ

Х
			
			 
Intro-/2nd & Verse/ Choruses: A5  C5  E5   G5 ------
1:----------------------------------------------------------
-------------------------------------------#
2:----------------------------------------------------------
-------------------------------------------#
3:---------------------------------5------------------------
------------------------------------------#
4:-------------7---------------5-5-5-----2-------------5-
--------------------------------------#
5:------------7--------------3------------2------------5-5-5
--------------------------------------- #
6:---------5------------5--------------0------0--------3----
---------------------------------------- #
 Bridge: C#5  A5  G5  F#5  F5  G#5  E5  G5  F#5  F5...

Lyrics: Трахни, трахни меня скорей
Трахни, трахни мой друг сильней
Видишь, я не один

Вспыхни,
Давай еще сильней..
Брызни,
Вонзи быстрей..

Любимая фигня,
Когда в средине я
Хочу я твой напор
Вонюч, прекрасен он....

ЕЩЕ ПЕСНИ

Em6.ru
Песни Новое Избранное Аккорды Настроить
© 2019