СТРАНИЦА ПЕСНИ

Х
			
			 
INTRO: A 
 
          A   
Nakasalumbaba  
      D            A  
Lukot ang yung mukha 
         D      A   
Ano ang may gawa? 
                Bm   E  
at ikaw ay tamang hinala 
         A  
Ningning ng yung mata 
     D            A  
Tila nag low-batt na 
          D   A  
Kumain ka na ba? 
                Bm  
Di's oras ng gabi'y  
        E (pause) 
gising kapa 
 
Chorus: 
           A  
Matulog ka na 
              D  
Mananaginip ka pa  
             Bm  
Ipikit ang mata  
                E  
Magbilang ka ng tupa 
               C#m  
At sa lamig ng gabi  
                  F#m  
Unan at kumot ang katabi 
              Bm  
Kaya matulog kana  
 
Wag (pahirapan/mong dayain) 
           E  (hold) E (hold) 
ang iyong sarili 
         A  
Naririnig mo ba? 
          D        A  
Naghihilik na ang iba 
 D             A  
Pero andyan kapa  
                       E  
Kahit malayo pa ang umaga 
      A  
Hihintayin mo pa  
    D        A  
na malugmok ka 
                 D     A  
Dapat na nga tigil mo na 
    Bm                  E  
Di bagay sa iyo ang nagdududa 
 
Repeat Chorus
 
A  D  A 
D  A  Bm  E (2x) 
 
Repeat chorus 2x
 
solo po e2... 
 
e|---------5/7---5--3------------------5-----------------5--------7/9--7-5-7~--| 
B|-----5---------------7--5~--5------5---5~--5---------5---5~--5---------------| 
G|-------------------------------7-7---------------7-7-------------------------| 
D|-----------------------------------------------------------------------------| 
A|-----------------------------------------------------------------------------| 
E|-----------------------------------------------------------------------------| 
 
e|---------5/7---5--3------------------5-----------------5--------7/9--7-5-7---| 
B|-----5---------------7--5~--5------5---5~--5---------5---5~--5-------------5~| 
G|-------------------------------7-7---------------7-7-------------------------| 
D|-----------------------------------------------------------------------------| 
A|-----------------------------------------------------------------------------| 
E|-----------------------------------------------------------------------------| 
(SLOWLY) 
 
          A   
Nakasalumbaba  
      D            A  
Lukot ang yung mukha 
          D    A   
Ano ang may gawa? 
                Bm    E  
at ikaw ay tamang hinala 
         A  
Ningning ng yung mata 
    D             A  
Tila nag low-batt na  
     D       A  
Kumain ka na ba? 
               Bm  
Di's oras ng gabi'y  
        E (pause) 
gising kapa 
          A 
Matulog ka na 

ЕЩЕ ПЕСНИ

Em6.ru
Песни Новое Избранное Аккорды Настроить
© 2019