Никольский Константин - Птицы белые мои, аккорды для гитары

  Автопрокрутка   
				
Проигрыш:

E||------------2-----------2-|
B||-----2------0-----2--0----|
G||-----4--------------------|
D||-----4------4-------------|
A||--2------------2----------|
E||--------------------------|

E|---------2-------0--2-|--------------2-|----------2----------|
B|----0-----------------|-2------2--0----|----0--------3--0----|
G|----------------------|-4--------------|---------------------|
D|----4---------4-------|-4--------------|----4--0-----------4-|
A|----------------------|-----2--------2-|---------------------|
E|-3--------------------|----------------|-3--------------3----|

E|-2----------2----------2---|------------2-----------2-|
B|-3---2------0----2--0------|-----2------------2--0----|
G|-----4---------------------|-----4------4-------------|
D|-----4--------------4------|-----4---0--4-------------|
A|---------2---------------2-|--------------------------|
E|---------------------------|--3------------3-----3----|

E|-2---------2-----------2--|----------2--------0--2-|
B|-0--2------0----2--0------|-----0------------------|
G|----4---------------------|------------------------|
D|-4--4------4--------------|-----4----------4-------|
A|--------2------------2----|------------------------|
E|--------------------------|--3----------3----------|

E|------------2----------2--|-----------2--------0--2-|
B|----2-------0----2--0-----|-----0-------------------|
G|----4---------------------|-----------4-------------|
D|----4-------4-------------|-----4-----4-----4-------|
A|-2-------2----------2-----|-------------------------|
E|--------------------------|--3-----------3----------|

E|----------2-----------2--|-----------2--------------|--2----|
B|---2------0-----2--0-----|-----0-----0-------3---2--|--3--2-|
G|---4---------------------|--------------------------|--4--4-|
D|----------4--------------|-----4----------4---------|--4--4-|
A|-------2-----------2-----|--------------------------|-------|
E|-------------2-----------|--3-----3----------3------|-------|

Куплет:

E||-------------2----------2---|------------2-|
B||-------------0----2--0------|-----2--------|
G||----------------------------|-----4------4-|
D||---------------------4------|-----4---0--4-|
A||----------2---------------2-|--------------|
E||----------------------------|--------------|

E|-3------------0----|-----3------2-|----------------2---------|
B|-0-------0---------|--0---------3-|-3--------0--3------------|
G|------0------------|------------2-|-4-----2------------------|
D|-----------------2-|--------------|-------0----------------0-|
A|-------------------|--------------|--------------------------|
E|-------------------|------------2-|---3----------------------|

E|---------5------2---------|--0-----------------|
B|-3------------------------|---------------2----|
G|-2----2-------------------|--------------------|
D|------------0------0------|-----2------------2-|
A|--------------------------|------------0-------|
E|--------------------------|--------------------|

E|---------------2-0----0------|-----------------------|
B|----3--------------3-----3---|--------0--3-----------|
G|-----------2-----------------|-----0---------------0-|
D|-0---------------------------|-----------------------|
A|-----------------------------|-----------------------|
E|-----------------------------|--3---------------3----|

E|---3--------------------|-----------3---------2-|
B|----------------0----3--|--------0--------------|
G|-------------0----------|-----0------------0----|
D|------------------------|-----------------------|
A|------------------------|-----------------------|
E|--------3---------------|--0--------------------|

E|-----------------------------|-------2-----------------|
B|-------3--2-----0----2--3----|----------3--------------|
G|-----------------------------|-----------------2-------|
D|----4----------------------0-|----4---------------0----|
A|-2---------------------------|-----------------------0-|
E|-----------------------------|-------------------------|

E|------0----0-----0-----------|---------------3---------|
B|------2----2-----2---------3-|-------------------------|
G|---2--------------------2--4-|----------0------------0-|
D|--------------2------2-------|-------0----------0------|
A|-----------------------------|-------------------------|
E|-----------------------------|----3--------------------|

E|--------------------2----|--3------3---------------|
B|-----------0-------------|------------------0----3-|
G|--------0--------2-------|----------------0--------|
D|----0--------------------|-------------------------|
A|-------------------------|-------------------------|
E|-3------------2----------|------------3------------|

E|------------------------7----|--------------------|
B|-------0---3-----------------|--------------------|
G|----0----------0---0----7----|--------------------|
D|-----------------------------|--------5---------5-|
A|-----------------------------|--------------------|
E|-3---------------------------|--------------------|

E|----2--0------0--2--------|--------------2--------|
B|----------3---------3-----|---------3-------------|
G|-----------------------2--|---------------------2-|
D|--------------------------|------0----------0-----|
A|-2------------------------|-----------------------|
E|--------------------------|-----------------------|

E|-0--------5--------0------|-----------|
B|-2------------------------|--3--------|
G|-------2------------------|--4------0-|
D|-------2-------2-------2--|-----------|
A|----0---------------------|-----------|
E|--------------------------|--3--------|

Еще подборки:

Комментарии: